ISO-10303-21;
HEADER;
/* Generated by software containing ST-Developer
 * from STEP Tools, Inc. (www.steptools.com) 
 */

FILE_DESCRIPTION(
/* description */ (''),
/* implementation_level */ '2;1');

FILE_NAME(
/* name */ '',
/* time_stamp */ '2025-07-24T08:51:11+07:00',
/* author */ ('zeta-86'),
/* organization */ (''),
/* preprocessor_version */ 'ST-DEVELOPER v19.2',
/* originating_system */ 'Autodesk Inventor 2024',
/* authorisation */ '');

FILE_SCHEMA (('AUTOMOTIVE_DESIGN { 1 0 10303 214 3 1 1 }'));
ENDSEC;

DATA;
#10=MECHANICAL_DESIGN_GEOMETRIC_PRESENTATION_REPRESENTATION('',(#13),#472);
#11=SHAPE_REPRESENTATION_RELATIONSHIP('SRR','None',#479,#12);
#12=ADVANCED_BREP_SHAPE_REPRESENTATION('',(#14),#471);
#13=STYLED_ITEM('',(#488),#14);
#14=MANIFOLD_SOLID_BREP('\X2\04220432043504400434043E0435\X0\ \X2\04420435043B043E\X0\1',
#221);
#15=TOROIDAL_SURFACE('',#273,8.75,0.75);
#16=(
BOUNDED_CURVE()
B_SPLINE_CURVE(2,(#464,#465,#466),.UNSPECIFIED.,.F.,.F.)
B_SPLINE_CURVE_WITH_KNOTS((3,3),(-1.36369090302736,-1.27264877437091),
 .UNSPECIFIED.)
CURVE()
GEOMETRIC_REPRESENTATION_ITEM()
RATIONAL_B_SPLINE_CURVE((0.995786626640022,0.996858878307673,1.))
REPRESENTATION_ITEM('')
);
#17=(
BOUNDED_SURFACE()
B_SPLINE_SURFACE(2,2,((#437,#438,#439,#440,#441,#442,#443,#444,#445),(#446,
#447,#448,#449,#450,#451,#452,#453,#454),(#455,#456,#457,#458,#459,#460,
#461,#462,#463)),.UNSPECIFIED.,.F.,.T.,.F.)
B_SPLINE_SURFACE_WITH_KNOTS((3,3),(3,2,2,2,3),(1.27264877437091,1.54910345912878),
(-3.14159265358979,-1.5707963267949,0.,1.5707963267949,3.14159265358979),
 .UNSPECIFIED.)
GEOMETRIC_REPRESENTATION_ITEM()
RATIONAL_B_SPLINE_SURFACE(((1.,0.707106781186548,1.,0.707106781186548,1.,
0.707106781186548,1.,0.707106781186548,1.),(0.990461802463832,0.700362257028426,
0.990461802463832,0.700362257028426,0.990461802463832,0.700362257028426,
0.990461802463832,0.700362257028426,0.990461802463832),(1.,0.707106781186548,
1.,0.707106781186548,1.,0.707106781186548,1.,0.707106781186548,1.)))
REPRESENTATION_ITEM('')
SURFACE()
);
#18=CONICAL_SURFACE('',#259,7.55,0.785398163397448);
#19=CONICAL_SURFACE('',#263,8.9,0.785398163397448);
#20=CONICAL_SURFACE('',#269,8.9,0.785398163397447);
#21=B_SPLINE_CURVE_WITH_KNOTS('',3,(#367,#368,#369,#370,#371,#372,#373,
#374,#375,#376),.UNSPECIFIED.,.F.,.F.,(4,2,2,2,4),(9.40704943166186,9.41502585066933,
10.0705269370976,10.7260280235259,10.7340044425334),.UNSPECIFIED.);
#22=B_SPLINE_CURVE_WITH_KNOTS('',3,(#381,#382,#383,#384,#385,#386,#387,
#388,#389,#390),.UNSPECIFIED.,.F.,.F.,(4,2,2,2,4),(9.40704943166186,9.41502585066933,
10.0705269370976,10.7260280235259,10.7340044425334),.UNSPECIFIED.);
#23=B_SPLINE_CURVE_WITH_KNOTS('',3,(#394,#395,#396,#397,#398,#399),
 .UNSPECIFIED.,.F.,.F.,(4,2,4),(-0.150033898628031,-0.122066307173673,-0.0750111594584105),
 .UNSPECIFIED.);
#24=B_SPLINE_CURVE_WITH_KNOTS('',3,(#400,#401,#402,#403,#404,#405),
 .UNSPECIFIED.,.F.,.F.,(4,2,4),(-0.150053855057668,-0.0766319530163079,
0.),.UNSPECIFIED.);
#25=B_SPLINE_CURVE_WITH_KNOTS('',3,(#406,#407,#408,#409),.UNSPECIFIED.,
 .F.,.F.,(4,4),(-0.0750111594584105,0.),.UNSPECIFIED.);
#26=LINE('',#359,#32);
#27=LINE('',#413,#33);
#28=LINE('',#422,#34);
#29=LINE('',#428,#35);
#30=LINE('',#430,#36);
#31=LINE('',#436,#37);
#32=VECTOR('',#291,8.5);
#33=VECTOR('',#312,7.55);
#34=VECTOR('',#323,8.9);
#35=VECTOR('',#330,9.3);
#36=VECTOR('',#333,8.9);
#37=VECTOR('',#340,10.);
#38=CYLINDRICAL_SURFACE('',#249,8.5);
#39=CYLINDRICAL_SURFACE('',#258,32.1374754593207);
#40=CYLINDRICAL_SURFACE('',#266,9.3);
#41=CYLINDRICAL_SURFACE('',#270,10.);
#42=FACE_BOUND('',#60,.T.);
#43=FACE_BOUND('',#67,.T.);
#44=FACE_OUTER_BOUND('',#58,.T.);
#45=FACE_OUTER_BOUND('',#59,.T.);
#46=FACE_OUTER_BOUND('',#61,.T.);
#47=FACE_OUTER_BOUND('',#62,.T.);
#48=FACE_OUTER_BOUND('',#63,.T.);
#49=FACE_OUTER_BOUND('',#64,.T.);
#50=FACE_OUTER_BOUND('',#65,.T.);
#51=FACE_OUTER_BOUND('',#66,.T.);
#52=FACE_OUTER_BOUND('',#68,.T.);
#53=FACE_OUTER_BOUND('',#69,.T.);
#54=FACE_OUTER_BOUND('',#70,.T.);
#55=FACE_OUTER_BOUND('',#71,.T.);
#56=FACE_OUTER_BOUND('',#72,.T.);
#57=FACE_OUTER_BOUND('',#73,.T.);
#58=EDGE_LOOP('',(#142));
#59=EDGE_LOOP('',(#143));
#60=EDGE_LOOP('',(#144));
#61=EDGE_LOOP('',(#145,#146,#147,#148,#149,#150));
#62=EDGE_LOOP('',(#151,#152));
#63=EDGE_LOOP('',(#153,#154));
#64=EDGE_LOOP('',(#155,#156,#157,#158,#159));
#65=EDGE_LOOP('',(#160,#161,#162,#163));
#66=EDGE_LOOP('',(#164));
#67=EDGE_LOOP('',(#165));
#68=EDGE_LOOP('',(#166,#167,#168,#169,#170));
#69=EDGE_LOOP('',(#171,#172,#173,#174,#175,#176));
#70=EDGE_LOOP('',(#177,#178,#179,#180,#181,#182));
#71=EDGE_LOOP('',(#183,#184,#185,#186,#187));
#72=EDGE_LOOP('',(#188,#189,#190,#191,#192,#193,#194,#195,#196));
#73=EDGE_LOOP('',(#197,#198,#199,#200,#201));
#74=CIRCLE('',#245,7.3);
#75=CIRCLE('',#247,10.);
#76=CIRCLE('',#248,9.45710678118653);
#77=CIRCLE('',#250,8.5);
#78=CIRCLE('',#251,8.5);
#79=CIRCLE('',#252,8.5);
#80=CIRCLE('',#253,8.5);
#81=CIRCLE('',#255,32.1374754593208);
#82=CIRCLE('',#257,32.1374754593208);
#83=CIRCLE('',#260,7.8);
#84=CIRCLE('',#262,8.5);
#85=CIRCLE('',#264,9.3);
#86=CIRCLE('',#265,9.3);
#87=CIRCLE('',#267,9.3);
#88=CIRCLE('',#268,9.3);
#89=CIRCLE('',#271,10.);
#90=CIRCLE('',#272,10.);
#91=CIRCLE('',#274,0.75);
#92=VERTEX_POINT('',#347);
#93=VERTEX_POINT('',#350);
#94=VERTEX_POINT('',#352);
#95=VERTEX_POINT('',#355);
#96=VERTEX_POINT('',#356);
#97=VERTEX_POINT('',#358);
#98=VERTEX_POINT('',#360);
#99=VERTEX_POINT('',#365);
#100=VERTEX_POINT('',#366);
#101=VERTEX_POINT('',#379);
#102=VERTEX_POINT('',#380);
#103=VERTEX_POINT('',#393);
#104=VERTEX_POINT('',#411);
#105=VERTEX_POINT('',#415);
#106=VERTEX_POINT('',#418);
#107=VERTEX_POINT('',#419);
#108=VERTEX_POINT('',#424);
#109=VERTEX_POINT('',#425);
#110=VERTEX_POINT('',#432);
#111=VERTEX_POINT('',#433);
#112=EDGE_CURVE('',#92,#92,#74,.T.);
#113=EDGE_CURVE('',#93,#93,#75,.T.);
#114=EDGE_CURVE('',#94,#94,#76,.T.);
#115=EDGE_CURVE('',#95,#96,#77,.T.);
#116=EDGE_CURVE('',#95,#97,#26,.T.);
#117=EDGE_CURVE('',#97,#98,#78,.T.);
#118=EDGE_CURVE('',#98,#97,#79,.T.);
#119=EDGE_CURVE('',#96,#95,#80,.T.);
#120=EDGE_CURVE('',#99,#100,#21,.T.);
#121=EDGE_CURVE('',#100,#99,#81,.T.);
#122=EDGE_CURVE('',#101,#102,#22,.T.);
#123=EDGE_CURVE('',#102,#101,#82,.T.);
#124=EDGE_CURVE('',#102,#103,#23,.T.);
#125=EDGE_CURVE('',#100,#101,#24,.T.);
#126=EDGE_CURVE('',#103,#99,#25,.T.);
#127=EDGE_CURVE('',#104,#104,#83,.T.);
#128=EDGE_CURVE('',#104,#92,#27,.T.);
#129=EDGE_CURVE('',#105,#105,#84,.T.);
#130=EDGE_CURVE('',#106,#107,#85,.T.);
#131=EDGE_CURVE('',#107,#106,#86,.T.);
#132=EDGE_CURVE('',#106,#105,#28,.T.);
#133=EDGE_CURVE('',#108,#109,#87,.T.);
#134=EDGE_CURVE('',#109,#108,#88,.T.);
#135=EDGE_CURVE('',#109,#107,#29,.T.);
#136=EDGE_CURVE('',#98,#108,#30,.T.);
#137=EDGE_CURVE('',#110,#111,#89,.T.);
#138=EDGE_CURVE('',#111,#110,#90,.T.);
#139=EDGE_CURVE('',#111,#93,#31,.T.);
#140=EDGE_CURVE('',#103,#110,#16,.T.);
#141=EDGE_CURVE('',#96,#94,#91,.T.);
#142=ORIENTED_EDGE('',*,*,#112,.F.);
#143=ORIENTED_EDGE('',*,*,#113,.F.);
#144=ORIENTED_EDGE('',*,*,#114,.T.);
#145=ORIENTED_EDGE('',*,*,#115,.F.);
#146=ORIENTED_EDGE('',*,*,#116,.T.);
#147=ORIENTED_EDGE('',*,*,#117,.T.);
#148=ORIENTED_EDGE('',*,*,#118,.T.);
#149=ORIENTED_EDGE('',*,*,#116,.F.);
#150=ORIENTED_EDGE('',*,*,#119,.F.);
#151=ORIENTED_EDGE('',*,*,#120,.F.);
#152=ORIENTED_EDGE('',*,*,#121,.F.);
#153=ORIENTED_EDGE('',*,*,#122,.F.);
#154=ORIENTED_EDGE('',*,*,#123,.F.);
#155=ORIENTED_EDGE('',*,*,#124,.F.);
#156=ORIENTED_EDGE('',*,*,#123,.T.);
#157=ORIENTED_EDGE('',*,*,#125,.F.);
#158=ORIENTED_EDGE('',*,*,#121,.T.);
#159=ORIENTED_EDGE('',*,*,#126,.F.);
#160=ORIENTED_EDGE('',*,*,#127,.T.);
#161=ORIENTED_EDGE('',*,*,#128,.T.);
#162=ORIENTED_EDGE('',*,*,#112,.T.);
#163=ORIENTED_EDGE('',*,*,#128,.F.);
#164=ORIENTED_EDGE('',*,*,#129,.F.);
#165=ORIENTED_EDGE('',*,*,#127,.F.);
#166=ORIENTED_EDGE('',*,*,#130,.T.);
#167=ORIENTED_EDGE('',*,*,#131,.T.);
#168=ORIENTED_EDGE('',*,*,#132,.T.);
#169=ORIENTED_EDGE('',*,*,#129,.T.);
#170=ORIENTED_EDGE('',*,*,#132,.F.);
#171=ORIENTED_EDGE('',*,*,#133,.F.);
#172=ORIENTED_EDGE('',*,*,#134,.F.);
#173=ORIENTED_EDGE('',*,*,#135,.T.);
#174=ORIENTED_EDGE('',*,*,#130,.F.);
#175=ORIENTED_EDGE('',*,*,#131,.F.);
#176=ORIENTED_EDGE('',*,*,#135,.F.);
#177=ORIENTED_EDGE('',*,*,#118,.F.);
#178=ORIENTED_EDGE('',*,*,#136,.T.);
#179=ORIENTED_EDGE('',*,*,#133,.T.);
#180=ORIENTED_EDGE('',*,*,#134,.T.);
#181=ORIENTED_EDGE('',*,*,#136,.F.);
#182=ORIENTED_EDGE('',*,*,#117,.F.);
#183=ORIENTED_EDGE('',*,*,#137,.F.);
#184=ORIENTED_EDGE('',*,*,#138,.F.);
#185=ORIENTED_EDGE('',*,*,#139,.T.);
#186=ORIENTED_EDGE('',*,*,#113,.T.);
#187=ORIENTED_EDGE('',*,*,#139,.F.);
#188=ORIENTED_EDGE('',*,*,#122,.T.);
#189=ORIENTED_EDGE('',*,*,#124,.T.);
#190=ORIENTED_EDGE('',*,*,#140,.T.);
#191=ORIENTED_EDGE('',*,*,#137,.T.);
#192=ORIENTED_EDGE('',*,*,#138,.T.);
#193=ORIENTED_EDGE('',*,*,#140,.F.);
#194=ORIENTED_EDGE('',*,*,#126,.T.);
#195=ORIENTED_EDGE('',*,*,#120,.T.);
#196=ORIENTED_EDGE('',*,*,#125,.T.);
#197=ORIENTED_EDGE('',*,*,#115,.T.);
#198=ORIENTED_EDGE('',*,*,#141,.T.);
#199=ORIENTED_EDGE('',*,*,#114,.F.);
#200=ORIENTED_EDGE('',*,*,#141,.F.);
#201=ORIENTED_EDGE('',*,*,#119,.T.);
#202=PLANE('',#244);
#203=PLANE('',#246);
#204=PLANE('',#254);
#205=PLANE('',#256);
#206=PLANE('',#261);
#207=ADVANCED_FACE('',(#44),#202,.F.);
#208=ADVANCED_FACE('',(#45,#42),#203,.F.);
#209=ADVANCED_FACE('',(#46),#38,.T.);
#210=ADVANCED_FACE('',(#47),#204,.F.);
#211=ADVANCED_FACE('',(#48),#205,.T.);
#212=ADVANCED_FACE('',(#49),#39,.F.);
#213=ADVANCED_FACE('',(#50),#18,.F.);
#214=ADVANCED_FACE('',(#51,#43),#206,.T.);
#215=ADVANCED_FACE('',(#52),#19,.T.);
#216=ADVANCED_FACE('',(#53),#40,.T.);
#217=ADVANCED_FACE('',(#54),#20,.T.);
#218=ADVANCED_FACE('',(#55),#41,.T.);
#219=ADVANCED_FACE('',(#56),#17,.F.);
#220=ADVANCED_FACE('',(#57),#15,.T.);
#221=CLOSED_SHELL('',(#207,#208,#209,#210,#211,#212,#213,#214,#215,#216,
#217,#218,#219,#220));
#222=DERIVED_UNIT_ELEMENT(#225,1.);
#223=DERIVED_UNIT_ELEMENT(#474,-3.);
#224=DIMENSIONAL_EXPONENTS(0.,1.,0.,0.,0.,0.,0.);
#225=(
CONVERSION_BASED_UNIT('gram',#227)
MASS_UNIT()
NAMED_UNIT(#224)
);
#226=(
MASS_UNIT()
NAMED_UNIT(*)
SI_UNIT(.KILO.,.GRAM.)
);
#227=MASS_MEASURE_WITH_UNIT(MASS_MEASURE(0.001),#226);
#228=DERIVED_UNIT((#222,#223));
#229=MEASURE_REPRESENTATION_ITEM('density measure',
POSITIVE_RATIO_MEASURE(1.),#228);
#230=PROPERTY_DEFINITION_REPRESENTATION(#235,#232);
#231=PROPERTY_DEFINITION_REPRESENTATION(#236,#233);
#232=REPRESENTATION('material name',(#234),#471);
#233=REPRESENTATION('density',(#229),#471);
#234=DESCRIPTIVE_REPRESENTATION_ITEM('\X2\04220438043F043E0432044B0435\X0\',
'\X2\04220438043F043E0432044B0435\X0\');
#235=PROPERTY_DEFINITION('material property','material name',#481);
#236=PROPERTY_DEFINITION('material property','density of part',#481);
#237=DATE_TIME_ROLE('creation_date');
#238=APPLIED_DATE_AND_TIME_ASSIGNMENT(#239,#237,(#481));
#239=DATE_AND_TIME(#240,#241);
#240=CALENDAR_DATE(2025,24,7);
#241=LOCAL_TIME(0,0,0.,#242);
#242=COORDINATED_UNIVERSAL_TIME_OFFSET(0,0,.BEHIND.);
#243=AXIS2_PLACEMENT_3D('',#345,#275,#276);
#244=AXIS2_PLACEMENT_3D('',#346,#277,#278);
#245=AXIS2_PLACEMENT_3D('',#348,#279,#280);
#246=AXIS2_PLACEMENT_3D('',#349,#281,#282);
#247=AXIS2_PLACEMENT_3D('',#351,#283,#284);
#248=AXIS2_PLACEMENT_3D('',#353,#285,#286);
#249=AXIS2_PLACEMENT_3D('',#354,#287,#288);
#250=AXIS2_PLACEMENT_3D('',#357,#289,#290);
#251=AXIS2_PLACEMENT_3D('',#361,#292,#293);
#252=AXIS2_PLACEMENT_3D('',#362,#294,#295);
#253=AXIS2_PLACEMENT_3D('',#363,#296,#297);
#254=AXIS2_PLACEMENT_3D('',#364,#298,#299);
#255=AXIS2_PLACEMENT_3D('',#377,#300,#301);
#256=AXIS2_PLACEMENT_3D('',#378,#302,#303);
#257=AXIS2_PLACEMENT_3D('',#391,#304,#305);
#258=AXIS2_PLACEMENT_3D('',#392,#306,#307);
#259=AXIS2_PLACEMENT_3D('',#410,#308,#309);
#260=AXIS2_PLACEMENT_3D('',#412,#310,#311);
#261=AXIS2_PLACEMENT_3D('',#414,#313,#314);
#262=AXIS2_PLACEMENT_3D('',#416,#315,#316);
#263=AXIS2_PLACEMENT_3D('',#417,#317,#318);
#264=AXIS2_PLACEMENT_3D('',#420,#319,#320);
#265=AXIS2_PLACEMENT_3D('',#421,#321,#322);
#266=AXIS2_PLACEMENT_3D('',#423,#324,#325);
#267=AXIS2_PLACEMENT_3D('',#426,#326,#327);
#268=AXIS2_PLACEMENT_3D('',#427,#328,#329);
#269=AXIS2_PLACEMENT_3D('',#429,#331,#332);
#270=AXIS2_PLACEMENT_3D('',#431,#334,#335);
#271=AXIS2_PLACEMENT_3D('',#434,#336,#337);
#272=AXIS2_PLACEMENT_3D('',#435,#338,#339);
#273=AXIS2_PLACEMENT_3D('',#467,#341,#342);
#274=AXIS2_PLACEMENT_3D('',#468,#343,#344);
#275=DIRECTION('axis',(0.,0.,1.));
#276=DIRECTION('refdir',(1.,0.,0.));
#277=DIRECTION('center_axis',(0.,1.,0.));
#278=DIRECTION('ref_axis',(0.,0.,1.));
#279=DIRECTION('center_axis',(0.,1.,0.));
#280=DIRECTION('ref_axis',(1.,0.,0.));
#281=DIRECTION('center_axis',(0.,1.,0.));
#282=DIRECTION('ref_axis',(0.,0.,1.));
#283=DIRECTION('center_axis',(0.,1.,0.));
#284=DIRECTION('ref_axis',(1.,0.,0.));
#285=DIRECTION('center_axis',(-5.44287443648492E-16,1.,0.));
#286=DIRECTION('ref_axis',(0.,0.,-1.));
#287=DIRECTION('center_axis',(0.,1.,0.));
#288=DIRECTION('ref_axis',(-1.,0.,0.));
#289=DIRECTION('center_axis',(0.,1.,0.));
#290=DIRECTION('ref_axis',(-1.,0.,0.));
#291=DIRECTION('',(0.,-1.,0.));
#292=DIRECTION('center_axis',(0.,1.,0.));
#293=DIRECTION('ref_axis',(1.,0.,0.));
#294=DIRECTION('center_axis',(0.,1.,0.));
#295=DIRECTION('ref_axis',(1.,0.,0.));
#296=DIRECTION('center_axis',(0.,1.,0.));
#297=DIRECTION('ref_axis',(-1.,0.,0.));
#298=DIRECTION('center_axis',(1.,0.,0.));
#299=DIRECTION('ref_axis',(0.,0.,-1.));
#300=DIRECTION('center_axis',(1.,0.,0.));
#301=DIRECTION('ref_axis',(0.,1.,0.));
#302=DIRECTION('center_axis',(1.,0.,0.));
#303=DIRECTION('ref_axis',(0.,0.,-1.));
#304=DIRECTION('center_axis',(-1.,0.,0.));
#305=DIRECTION('ref_axis',(0.,1.,0.));
#306=DIRECTION('center_axis',(1.,0.,0.));
#307=DIRECTION('ref_axis',(0.,-0.999999996409513,-8.47406267902687E-5));
#308=DIRECTION('center_axis',(0.,-1.,0.));
#309=DIRECTION('ref_axis',(1.,0.,0.));
#310=DIRECTION('center_axis',(0.,-1.,0.));
#311=DIRECTION('ref_axis',(1.,0.,0.));
#312=DIRECTION('',(0.707106781186547,0.707106781186547,8.65956056235493E-17));
#313=DIRECTION('center_axis',(0.,-1.,0.));
#314=DIRECTION('ref_axis',(0.,0.,-1.));
#315=DIRECTION('center_axis',(0.,1.,0.));
#316=DIRECTION('ref_axis',(1.,0.,0.));
#317=DIRECTION('center_axis',(0.,1.,0.));
#318=DIRECTION('ref_axis',(1.,0.,0.));
#319=DIRECTION('center_axis',(0.,-1.,0.));
#320=DIRECTION('ref_axis',(1.,0.,0.));
#321=DIRECTION('center_axis',(0.,-1.,0.));
#322=DIRECTION('ref_axis',(1.,0.,0.));
#323=DIRECTION('',(0.707106781186547,-0.707106781186548,-8.65956056235493E-17));
#324=DIRECTION('center_axis',(0.,1.,0.));
#325=DIRECTION('ref_axis',(-1.,0.,0.));
#326=DIRECTION('center_axis',(0.,1.,0.));
#327=DIRECTION('ref_axis',(1.,0.,0.));
#328=DIRECTION('center_axis',(0.,1.,0.));
#329=DIRECTION('ref_axis',(1.,0.,0.));
#330=DIRECTION('',(0.,-1.,0.));
#331=DIRECTION('center_axis',(0.,-1.,0.));
#332=DIRECTION('ref_axis',(1.,0.,0.));
#333=DIRECTION('',(-0.707106781186547,-0.707106781186548,8.65956056235492E-17));
#334=DIRECTION('center_axis',(0.,1.,0.));
#335=DIRECTION('ref_axis',(-1.,0.,0.));
#336=DIRECTION('center_axis',(0.,1.,0.));
#337=DIRECTION('ref_axis',(1.,0.,0.));
#338=DIRECTION('center_axis',(0.,1.,0.));
#339=DIRECTION('ref_axis',(1.,0.,0.));
#340=DIRECTION('',(0.,-1.,0.));
#341=DIRECTION('center_axis',(1.08857488729698E-15,-1.,0.));
#342=DIRECTION('ref_axis',(-1.78851085988036E-13,0.,-1.));
#343=DIRECTION('center_axis',(-1.,-1.08857488729698E-15,1.7874590696465E-13));
#344=DIRECTION('ref_axis',(1.7874590696465E-13,0.,1.));
#345=CARTESIAN_POINT('',(0.,0.,0.));
#346=CARTESIAN_POINT('Origin',(-3.7641313711965,-8.29933718765776,0.));
#347=CARTESIAN_POINT('',(-11.0641313711965,-8.29933718765776,8.93992163377568E-16));
#348=CARTESIAN_POINT('Origin',(-3.7641313711965,-8.29933718765776,0.));
#349=CARTESIAN_POINT('Origin',(-3.7641313711965,-2.79933718765776,0.));
#350=CARTESIAN_POINT('',(6.2358686288035,-2.79933718765776,-1.22464679914735E-15));
#351=CARTESIAN_POINT('Origin',(-3.7641313711965,-2.79933718765776,0.));
#352=CARTESIAN_POINT('',(-3.7641313711965,-2.79933718765776,9.45710678118653));
#353=CARTESIAN_POINT('Origin',(-3.7641313711965,-2.79933718765776,0.));
#354=CARTESIAN_POINT('Origin',(-3.7641313711965,-3.29933718765776,0.));
#355=CARTESIAN_POINT('',(4.7358686288035,-3.75644396884435,-1.04094977927525E-15));
#356=CARTESIAN_POINT('',(-3.76413137119498,-3.75644396884435,8.5));
#357=CARTESIAN_POINT('Origin',(-3.7641313711965,-3.75644396884435,0.));
#358=CARTESIAN_POINT('',(4.7358686288035,-4.29933718765776,-1.04094977927525E-15));
#359=CARTESIAN_POINT('',(4.7358686288035,-3.29933718765776,-1.04094977927525E-15));
#360=CARTESIAN_POINT('',(-12.2641313711965,-4.29933718765776,0.));
#361=CARTESIAN_POINT('Origin',(-3.7641313711965,-4.29933718765776,0.));
#362=CARTESIAN_POINT('Origin',(-3.7641313711965,-4.29933718765776,0.));
#363=CARTESIAN_POINT('Origin',(-3.7641313711965,-3.75644396884435,0.));
#364=CARTESIAN_POINT('Origin',(-3.0141313711965,30.8381358405663,0.));
#365=CARTESIAN_POINT('',(-3.0141313711965,-0.53071947658465,-6.98657605627364));
#366=CARTESIAN_POINT('',(-3.0141313711965,-0.53071947658465,6.98657605627364));
#367=CARTESIAN_POINT('Ctrl Pts',(-3.0141313711965,-0.530719476584651,-6.98657605627364));
#368=CARTESIAN_POINT('Ctrl Pts',(-3.0141313711965,-0.524775619277354,-6.95822220892672));
#369=CARTESIAN_POINT('Ctrl Pts',(-3.0141313711965,-0.518867939288378,-6.92986042914145));
#370=CARTESIAN_POINT('Ctrl Pts',(-3.0141313711965,-0.0304846010916349,-4.57010689338587));
#371=CARTESIAN_POINT('Ctrl Pts',(-3.0141313711965,0.192665555344577,-2.18500362142758));
#372=CARTESIAN_POINT('Ctrl Pts',(-3.0141313711965,0.192665555344577,2.18500362142758));
#373=CARTESIAN_POINT('Ctrl Pts',(-3.0141313711965,-0.0304846010916349,4.57010689338587));
#374=CARTESIAN_POINT('Ctrl Pts',(-3.0141313711965,-0.518867939288378,6.92986042914145));
#375=CARTESIAN_POINT('Ctrl Pts',(-3.0141313711965,-0.524775619277354,6.95822220892672));
#376=CARTESIAN_POINT('Ctrl Pts',(-3.0141313711965,-0.530719476584651,6.98657605627364));
#377=CARTESIAN_POINT('Origin',(-3.0141313711965,30.8381358405663,0.));
#378=CARTESIAN_POINT('Origin',(-4.5141313711965,30.8381358405663,0.));
#379=CARTESIAN_POINT('',(-4.5141313711965,-0.53071947658465,6.98657605627364));
#380=CARTESIAN_POINT('',(-4.5141313711965,-0.53071947658465,-6.98657605627364));
#381=CARTESIAN_POINT('Ctrl Pts',(-4.5141313711965,-0.530719476584651,6.98657605627364));
#382=CARTESIAN_POINT('Ctrl Pts',(-4.5141313711965,-0.524775619277354,6.95822220892672));
#383=CARTESIAN_POINT('Ctrl Pts',(-4.5141313711965,-0.518867939288378,6.92986042914145));
#384=CARTESIAN_POINT('Ctrl Pts',(-4.5141313711965,-0.0304846010916349,4.57010689338587));
#385=CARTESIAN_POINT('Ctrl Pts',(-4.5141313711965,0.192665555344577,2.18500362142758));
#386=CARTESIAN_POINT('Ctrl Pts',(-4.5141313711965,0.192665555344577,-2.18500362142758));
#387=CARTESIAN_POINT('Ctrl Pts',(-4.5141313711965,-0.0304846010916349,-4.57010689338587));
#388=CARTESIAN_POINT('Ctrl Pts',(-4.5141313711965,-0.518867939288378,-6.92986042914145));
#389=CARTESIAN_POINT('Ctrl Pts',(-4.5141313711965,-0.524775619277354,-6.95822220892672));
#390=CARTESIAN_POINT('Ctrl Pts',(-4.5141313711965,-0.530719476584651,-6.98657605627364));
#391=CARTESIAN_POINT('Origin',(-4.5141313711965,30.8381358405663,0.));
#392=CARTESIAN_POINT('Origin',(-3.7641313711965,30.8381358405663,0.));
#393=CARTESIAN_POINT('',(-3.7641313711965,-0.526372278946111,-7.0060658946006));
#394=CARTESIAN_POINT('Ctrl Pts',(-4.5141313711965,-0.530719476584651,-6.98657605627365));
#395=CARTESIAN_POINT('Ctrl Pts',(-4.42103796539187,-0.529640287238273,-6.99142148187178));
#396=CARTESIAN_POINT('Ctrl Pts',(-4.32789076533972,-0.528761445405622,-6.99536226619265));
#397=CARTESIAN_POINT('Ctrl Pts',(-4.07795332773506,-0.526943475316911,-7.00351025017502));
#398=CARTESIAN_POINT('Ctrl Pts',(-3.92104843077336,-0.526372278946111,-7.0060658946006));
#399=CARTESIAN_POINT('Ctrl Pts',(-3.7641313711965,-0.526372278946111,-7.0060658946006));
#400=CARTESIAN_POINT('Ctrl Pts',(-3.0141313711965,-0.530719476584651,6.98657605627364));
#401=CARTESIAN_POINT('Ctrl Pts',(-3.25852388056765,-0.527886345814878,6.99929646015899));
#402=CARTESIAN_POINT('Ctrl Pts',(-3.50333558433938,-0.52643500751164,7.00578507320471));
#403=CARTESIAN_POINT('Ctrl Pts',(-4.00351611075295,-0.526310879418411,7.00634076620701));
#404=CARTESIAN_POINT('Ctrl Pts',(-4.25905392586331,-0.527762480231088,6.99985260118507));
#405=CARTESIAN_POINT('Ctrl Pts',(-4.5141313711965,-0.53071947658465,6.98657605627364));
#406=CARTESIAN_POINT('Ctrl Pts',(-3.7641313711965,-0.526372278946111,-7.00606589460059));
#407=CARTESIAN_POINT('Ctrl Pts',(-3.51398805746408,-0.526372278946111,-7.00606589460059));
#408=CARTESIAN_POINT('Ctrl Pts',(-3.2638138361868,-0.527825021774817,-6.99957179745221));
#409=CARTESIAN_POINT('Ctrl Pts',(-3.0141313711965,-0.530719476584651,-6.98657605627364));
#410=CARTESIAN_POINT('Origin',(-3.7641313711965,-8.54933718765776,0.));
#411=CARTESIAN_POINT('',(-11.5641313711965,-8.79933718765776,-9.55224503334935E-16));
#412=CARTESIAN_POINT('Origin',(-3.7641313711965,-8.79933718765776,0.));
#413=CARTESIAN_POINT('',(-11.3141313711965,-8.54933718765776,-9.24608333356252E-16));
#414=CARTESIAN_POINT('Origin',(-13.0641313711965,-8.79933718765776,0.));
#415=CARTESIAN_POINT('',(-12.2641313711965,-8.79933718765776,1.04094977927525E-15));
#416=CARTESIAN_POINT('Origin',(-3.7641313711965,-8.79933718765776,0.));
#417=CARTESIAN_POINT('Origin',(-3.7641313711965,-8.39933718765776,0.));
#418=CARTESIAN_POINT('',(-13.0641313711965,-7.99933718765776,-1.13892152320704E-15));
#419=CARTESIAN_POINT('',(5.5358686288035,-7.99933718765776,-1.13892152320704E-15));
#420=CARTESIAN_POINT('Origin',(-3.7641313711965,-7.99933718765776,0.));
#421=CARTESIAN_POINT('Origin',(-3.7641313711965,-7.99933718765776,0.));
#422=CARTESIAN_POINT('',(-12.6641313711965,-8.39933718765776,1.08993565124114E-15));
#423=CARTESIAN_POINT('Origin',(-3.7641313711965,-6.54933718765776,0.));
#424=CARTESIAN_POINT('',(-13.0641313711965,-5.09933718765776,1.13892152320704E-15));
#425=CARTESIAN_POINT('',(5.5358686288035,-5.09933718765776,-1.13892152320704E-15));
#426=CARTESIAN_POINT('Origin',(-3.7641313711965,-5.09933718765776,0.));
#427=CARTESIAN_POINT('Origin',(-3.7641313711965,-5.09933718765776,0.));
#428=CARTESIAN_POINT('',(5.5358686288035,-6.54933718765776,-1.13892152320704E-15));
#429=CARTESIAN_POINT('Origin',(-3.7641313711965,-4.69933718765776,0.));
#430=CARTESIAN_POINT('',(-12.6641313711965,-4.69933718765776,1.08993565124114E-15));
#431=CARTESIAN_POINT('Origin',(-3.7641313711965,-2.04933718765776,0.));
#432=CARTESIAN_POINT('',(-3.7641313711965,-1.29933718765776,-10.));
#433=CARTESIAN_POINT('',(6.2358686288035,-1.29933718765776,-1.22464679914735E-15));
#434=CARTESIAN_POINT('Origin',(-3.7641313711965,-1.29933718765776,0.));
#435=CARTESIAN_POINT('Origin',(-3.7641313711965,-1.29933718765776,0.));
#436=CARTESIAN_POINT('',(6.2358686288035,-2.04933718765776,-1.22464679914735E-15));
#437=CARTESIAN_POINT('Ctrl Pts',(-3.7641313711965,-1.29933718765776,-10.));
#438=CARTESIAN_POINT('Ctrl Pts',(-13.7641313711965,-1.29933718765776,-10.));
#439=CARTESIAN_POINT('Ctrl Pts',(-13.7641313711965,-1.29933718765776,0.));
#440=CARTESIAN_POINT('Ctrl Pts',(-13.7641313711965,-1.29933718765776,10.));
#441=CARTESIAN_POINT('Ctrl Pts',(-3.7641313711965,-1.29933718765776,10.));
#442=CARTESIAN_POINT('Ctrl Pts',(6.2358686288035,-1.29933718765776,10.));
#443=CARTESIAN_POINT('Ctrl Pts',(6.2358686288035,-1.29933718765776,0.));
#444=CARTESIAN_POINT('Ctrl Pts',(6.2358686288035,-1.29933718765776,-10.));
#445=CARTESIAN_POINT('Ctrl Pts',(-3.7641313711965,-1.29933718765776,-10.));
#446=CARTESIAN_POINT('Ctrl Pts',(-3.7641313711965,0.0900686714828988,-5.47877959572089));
#447=CARTESIAN_POINT('Ctrl Pts',(-9.24291096691739,0.0900686714828988,-5.47877959572089));
#448=CARTESIAN_POINT('Ctrl Pts',(-9.24291096691739,0.0900686714828991,0.));
#449=CARTESIAN_POINT('Ctrl Pts',(-9.24291096691739,0.0900686714828994,5.47877959572089));
#450=CARTESIAN_POINT('Ctrl Pts',(-3.7641313711965,0.0900686714828994,5.47877959572089));
#451=CARTESIAN_POINT('Ctrl Pts',(1.71464822452438,0.0900686714828994,5.47877959572089));
#452=CARTESIAN_POINT('Ctrl Pts',(1.71464822452439,0.0900686714828991,0.));
#453=CARTESIAN_POINT('Ctrl Pts',(1.71464822452438,0.0900686714828988,-5.47877959572089));
#454=CARTESIAN_POINT('Ctrl Pts',(-3.7641313711965,0.0900686714828988,-5.47877959572089));
#455=CARTESIAN_POINT('Ctrl Pts',(-3.7641313711965,0.192665555344576,-0.750000000000003));
#456=CARTESIAN_POINT('Ctrl Pts',(-4.51413137119651,0.192665555344576,-0.750000000000003));
#457=CARTESIAN_POINT('Ctrl Pts',(-4.51413137119651,0.192665555344576,0.));
#458=CARTESIAN_POINT('Ctrl Pts',(-4.51413137119651,0.192665555344576,0.750000000000003));
#459=CARTESIAN_POINT('Ctrl Pts',(-3.7641313711965,0.192665555344576,0.750000000000003));
#460=CARTESIAN_POINT('Ctrl Pts',(-3.0141313711965,0.192665555344576,0.750000000000003));
#461=CARTESIAN_POINT('Ctrl Pts',(-3.0141313711965,0.192665555344576,0.));
#462=CARTESIAN_POINT('Ctrl Pts',(-3.0141313711965,0.192665555344576,-0.750000000000003));
#463=CARTESIAN_POINT('Ctrl Pts',(-3.7641313711965,0.192665555344576,-0.750000000000003));
#464=CARTESIAN_POINT('Ctrl Pts',(-3.7641313711965,-0.526372278946111,-7.00606589460059));
#465=CARTESIAN_POINT('Ctrl Pts',(-3.7641313711965,-0.844713954896681,-8.52062532866386));
#466=CARTESIAN_POINT('Ctrl Pts',(-3.7641313711965,-1.29933718765776,-10.));
#467=CARTESIAN_POINT('Origin',(-3.7641313711965,-3.04933718765781,0.));
#468=CARTESIAN_POINT('Origin',(-3.76413137119494,-3.04933718765781,8.75));
#469=UNCERTAINTY_MEASURE_WITH_UNIT(LENGTH_MEASURE(0.01),#473,
'DISTANCE_ACCURACY_VALUE',
'Maximum model space distance between geometric entities at asserted c
onnectivities');
#470=UNCERTAINTY_MEASURE_WITH_UNIT(LENGTH_MEASURE(0.01),#473,
'DISTANCE_ACCURACY_VALUE',
'Maximum model space distance between geometric entities at asserted c
onnectivities');
#471=(
GEOMETRIC_REPRESENTATION_CONTEXT(3)
GLOBAL_UNCERTAINTY_ASSIGNED_CONTEXT((#469))
GLOBAL_UNIT_ASSIGNED_CONTEXT((#473,#475,#476))
REPRESENTATION_CONTEXT('','3D')
);
#472=(
GEOMETRIC_REPRESENTATION_CONTEXT(3)
GLOBAL_UNCERTAINTY_ASSIGNED_CONTEXT((#470))
GLOBAL_UNIT_ASSIGNED_CONTEXT((#473,#475,#476))
REPRESENTATION_CONTEXT('','3D')
);
#473=(
LENGTH_UNIT()
NAMED_UNIT(*)
SI_UNIT(.MILLI.,.METRE.)
);
#474=(
LENGTH_UNIT()
NAMED_UNIT(*)
SI_UNIT(.CENTI.,.METRE.)
);
#475=(
NAMED_UNIT(*)
PLANE_ANGLE_UNIT()
SI_UNIT($,.RADIAN.)
);
#476=(
NAMED_UNIT(*)
SI_UNIT($,.STERADIAN.)
SOLID_ANGLE_UNIT()
);
#477=SHAPE_DEFINITION_REPRESENTATION(#478,#479);
#478=PRODUCT_DEFINITION_SHAPE('',$,#481);
#479=SHAPE_REPRESENTATION('',(#243),#471);
#480=PRODUCT_DEFINITION_CONTEXT('part definition',#485,'design');
#481=PRODUCT_DEFINITION('\X2\0414043504420430043B044C\X0\1',
'\X2\0414043504420430043B044C\X0\1',#482,#480);
#482=PRODUCT_DEFINITION_FORMATION('',$,#487);
#483=PRODUCT_RELATED_PRODUCT_CATEGORY('\X2\0414043504420430043B044C\X0\1',
'\X2\0414043504420430043B044C\X0\1',(#487));
#484=APPLICATION_PROTOCOL_DEFINITION('international standard',
'automotive_design',2009,#485);
#485=APPLICATION_CONTEXT(
'Core Data for Automotive Mechanical Design Process');
#486=PRODUCT_CONTEXT('part definition',#485,'mechanical');
#487=PRODUCT('\X2\0414043504420430043B044C\X0\1','\X2\0414043504420430043B044C\X0\1',
$,(#486));
#488=PRESENTATION_STYLE_ASSIGNMENT((#489));
#489=SURFACE_STYLE_USAGE(.BOTH.,#492);
#490=SURFACE_STYLE_RENDERING_WITH_PROPERTIES($,#496,(#491));
#491=SURFACE_STYLE_TRANSPARENT(0.);
#492=SURFACE_SIDE_STYLE('',(#493,#490));
#493=SURFACE_STYLE_FILL_AREA(#494);
#494=FILL_AREA_STYLE('',(#495));
#495=FILL_AREA_STYLE_COLOUR('',#496);
#496=COLOUR_RGB('',0.749019607843137,0.749019607843137,0.749019607843137);
ENDSEC;
END-ISO-10303-21;
